ForumTayfa  

Go Back   ForumTayfa > Müzik Dünyası > Müzik Hakkında > Nota - Akor - Tab Paylaşımları

Nota - Akor - Tab Paylaşımları Nota - Akor - Tab paylaşımları bu bölümde...

Yeni Konu aç  Cevapla
 
LinkBack Seçenekler Stil
Alt 11.04.10, 13:20   #1 (permalink)
eS.
-Nevrotik
 
eS. - ait Kullanıcı Resmi (Avatar)
 
Üyelik Tarihi: May 2009
Nereden: Bir ileri,iki geri
Mesaj Sayısı: 9.505
Konu Sayısı: 2623
Takım: Beşiktaş
Rep Gücü: 1500051
Rep Puanı: 150003039
Rep Derecesi : eS. 0-10000000eS. 0-10000000eS. 0-10000000eS. 0-10000000eS. 0-10000000eS. 0-10000000eS. 0-10000000eS. 0-10000000eS. 0-10000000eS. 0-10000000eS. 0-10000000
Ruh Hali:

Arrow Slipknot - Snuff - AKOR




Giriş (intro) : F#m F#m - Db D D - Db F#m F#m - Db D D - Db


F#m F#m - Db D D - Db
Bury all your secrets in my skin
F#m F#m - Db D D - Db
Come away with innocence, and leave me with my sins
F#m F#m - Db D D - Db
The air around me still feels like a cage
F#m F#m - Db D D - Db
And love is just a camouflage for what resembles rage again…


ara müzik1:
F#m F#m - Db D D - Db F#m F#m - Db D

ara müzik1..2.gitar solosu: "^" işareti: hummer on (sürükleme)
e--------------------------------------------------------
b-------------2-----2-3--3^5------------------------
g---2---4------------------------4--2--4^6^4---2-1-
d--------------------------------------------------------
a--------------------------------------------------------
e--------------------------------------------------------

e------------------------------------------------------
b-----------2----3^5---3^2--2---------------------
g---2---4--------------------------4---2---4^6^4-
d-------------------------------------------------------
a-----------------------------------------------------
e------------------------------------------------------

nakarat
D E F#m
So if you love me, let me go. And run away before I know.
E F#m
My heart is just too dark to care. I can't destroy what isn't there.
E F#m
Deliver me into my Fate - If I'm alone I cannot hate
E
I don't deserve to have you
D ( C'nin 2. pozisyonu)
My smile was taken long ago / If I can change I hope I never know

nakaratta arkadaki arpejler:
e----------------|----------------------------------------------
b---------3------|------------2---------------------2-------
g-----6-------6-|---------2------2--------------2------2----
d-4-------------|-----4--------------4------4--------------4-
a---------------|--5---------------------5-------------------
e---------------|------------------------------------------------

ara müzik2:
F#m F#m – Db D D - Db F#m F#m – Db D D - Db

ara müzik2 de arkadaki solo:
e-------------------------------------------------------------
b---8--6------------------------8--6-----------------------
g---------8--7--5---------------------8--7--5--------------
d-5----------------8--7--5---5----------------8--7--5--7^8--
a-------------------------------------------------------------
e-------------------------------------------------------------

F#m F#m – Db D D – Db
I still press your letters to my lips
F#m F#m – Db D D - Db
And cherish them in parts of me that savor every kiss
F#m F#m - Db D D - Db
I couldn't face a life without your light
F#m F#m - Db D
But all of that was ripped apart when you refused to fight


nakarat:
D E F#m
So save your breath, I will not hear. I think I made it very clear.
E F#m
You couldn't hate enough to love. Is that supposed to be enough?
E F#m
I only wish you weren't my friend. Then I could hurt you in the end.
E
I never claimed to be a Saint…
D (C'nin 2. pozisyonu)
My own was banished long ago / It took the Death of Hope to let you go

nakaratta arkadaki arpejler:
e----------------|----------------------------------------------
b---------3------|------------2---------------------2-------
g-----6-------6-|---------2------2--------------2------2----
d-4-------------|-----4--------------4------4--------------4-
a---------------|--5---------------------5---------------------
e---------------|-----------------------------------------------

ara müzik2:
F#m F#m - Db D D - Db F#m F#m - Db D

ara müzik2 de arkadaki solo:
e------------------------------------------------------------------
b---8--6------------------------8--6-----------------------
g---------8--7--5---------------------8--7--5--------------
d-5----------------8--7--5---5----------------8--7--5--7^8--
a-----------------------------------------------------------------
e------------------------------------------------------------------

nakarat: (arkadaki arpejler de var)
D E
So Break Yourself Against My Stones
F#m
And Spit Your Pity In My Soul
E
You Never Needed Any Help
F#m
You Sold Me Out To Save Yourself
E
And I Won't Listen To Your Shame
F#m
You Ran Away - You're All The Same
E
Angels Lie To Keep Control
D
My love was punished long ago if still care
F# - G# - A – C# - D (power akor)
Don't Ever Let Me Know
F#m
If you still care, don't ever let me know…

ara müzik:
F#m F#m - Db D D - Db F#m F#m - Db D

ara müzik2 de arkadaki solo:
e---------------------------------------------------------
b---8--6-----------------------8--6-----------------------
g--------8--7--5---------------------8--7--5--------------
d-5---------------8--7--5---5----------------8--7--5--7^8-
a---------------------------------------------------------
e---------------------------------------------------------


__________________
iştahla çaya batırdığım büsküvinin tam çıkardığım an düşmesi gibi,
beyaz kalıp sabuna dolanan siyah saç telinin alırken tırnak içlerimin sabun dolması gibi,
U-mutsuzluk bulaşıcı.


[Sadece Kayıtlı Kullanıcılar Linkleri Görebilir.Kayıt Olmak İçin Tıklayınız...]
eS. isimli Üye şimdilik offline konumundadır   Alıntı ile Cevapla
Cevapla


Konuyu Toplam 1 Üye okuyor. (0 Kayıtlı üye ve 1 Misafir)
 
Seçenekler
Stil

Yetkileriniz
Konu Acma Yetkiniz Yok
Cevap Yazma Yetkiniz Yok
Eklenti Yükleme Yetkiniz Yok
Mesajınızı Değiştirme Yetkiniz Yok

BB code is Açık
Smileler Açık
[IMG] Kodları Açık
HTML-Kodu Kapalı
Trackbacks are Açık
Pingbacks are Açık
Refbacks are Açık


Benzer Konular
Konu Konuyu Başlatan Forum Cevaplar Son Mesaj
Slipknot Circle Akor belirhan Nota - Akor - Tab Paylaşımları 0 04.04.10 14:04
Slipknot Snuff Çeviri belirhan HeavyMetal 0 29.03.10 01:48
Slipknot Snuff belirhan HeavyMetal 0 11.02.10 00:15


Tüm Zamanlar GMT +3 Olarak Ayarlanmış. Şuanki Zaman: 21:25.


Powered by vBulletin® Version 3.8.0
Copyright ©2000 - 2020, Jelsoft Enterprises Ltd.
Search Engine Optimization by vBSEO 3.6.0
User Alert System provided by Advanced User Tagging v3.0.6 (Lite) - vBulletin Mods & Addons Copyright © 2020 DragonByte Technologies Ltd.
ForumTayfa

Arşiv: 1 2 3 4 5 6 7 8 9 10 11 12 13 14 16 22 23 24 25 26 27 29 30 31 32 33 34 35 36 37 38 39 40 41 42 43 44 45 46 47 48 49 50 51 52 53 54 55 56 57 59 60 61 62 63 64 65 66 67 68 69 70 71 72 73 74 75 76 77 78 79 80 81 82 83 84 85 86 87 88 89 90 91 92 93 95 96 97 98 99 100 102 103 104 105 106 155 156 157 158 159 160 161 162 163 164 167 170 171 172 173 174 175 176 177 178 179 180 181 182 183 184 185 186 187 188 189 190 191 192 193 194 195 196 197 198 199 200 201 202 203 204 205 206 207 208 209 210 211 212 213 214 215 216 217 218 219 220 221 222 223 224 238 239 240 241 242 243 244 245 246 247 248 249 250 251 252 253 254 255 257 258 259 260 261 262 263 264 265 266 267 268 269 270 271


ForumTayfa - Link Değişimi
Telinka İletişim | Voip Ürünleri | Link Değişimine Katılın |

Sitemiz bir forum sitesi olduğundan dolayı, kullanıcılar her türlü görüşlerini önceden onay olmadan anında siteye yazabilmektedir. ForumTayfa Yöneticileri mesajları itina ile kontrol etse de, bu yazılardan dolayı doğabilecek her türlü sorumluluk yazan kullanıcılara aittir. Yine de sitemizde yasalara aykırı unsurlar bulursanız [email protected] email adresine bildirebilirsiniz, şikayetiniz incelendikten sonra en kısa sürede gereken yapılacaktır.

Any member of our web site has the right of adding comments instantly without getting permisson due to the forum structure of our site basis. Althought, our site modarators check comments with care, all the responsibilities sourced from these comments directly belong to the members. If you still find any illegal content in our site ( A.buse, H.arassment, S.camming, H.acking, W.arez, C.rack, D.ivx, Mp.3 or any Illegal Activity ), please report us via [email protected] .Your reports will be evaluated as soon as the arrival of your e-mail.